September 26, 2013

Tam Tshi Sum

Tuning - Standard eBGDAE
Capo - 1st fret        
                     ---Click Here To Download This Song---

Chords used

       G    C9   Dsus4
e|-----3-----3-----3------|
B|-----3-----3-----3------|
G|-----0-----0-----2------|
D|-----0-----2-----0------|
A|-----2-----3-----x------|
E|-----3-----x-----x------|

G                       C9
Tam tshisum choe lu lab me
Dsus4                    G 
Bhum choe gi tsa lae me ngyen
G                          C9 
Nyim chi gi dhey tshey dhi na
Dsus4                      G 
Lo lhap chi gudho zum bae bew mae 

G                   C9
Wong na mae ngi menchu
Dsus4            G 
Bhu nge gi mitse na
G                   C9 
Wong na mae ngi menchu
Dsus4             G 
Bhu nge gi mitse na

* Same chords apply for the rap...

2 comments:

  1. This comment has been removed by the author.

    ReplyDelete
  2. Tam Tshi Sum
    Tuning - Standard eBGDAE

    Intro (Lead)

    G# C#
    |--------------------------------------------------------------------------------------------------------|
    |-------------11-13-11--9---11-13-11s9--------------------------------------------------------|
    |---------------------------------------------------------13--13-15-13-----------------13-15-----|
    |-------13------------------------------------------11--------------------15---13-15--------------|
    |--11---------------------------------------------------------------------------------------------------|
    |----------------------------------------------------------------------------|

    D# G#
    |-------------------------------------------------------------------------------------11----------------|
    |------------------------------------------------------------------11-13-11--9-------13-11p9----|
    |------12---12-13-12-------12-13-12------------------------------------------------------------|
    |--13---------------------15----------------13--------- 13------------------------------------------|
    |----------------------------------------- -------------11----------------------------------------------|
    |---------------------------------------------------------------------------------------------------------|

    Verse & Chorus

    G# C# D# G#

    ReplyDelete