Yeshey Khandum

 --INTRO--
     
     G                     D      G                       D
E|--------------12---------------------------12-------------------------|
B|---8-10-10b12----12r10-8-10-----8-10-10b12----12r10-8-8h10------------|
G|-7----------------------------7---------------------------------------|
D|----------------------------------------------------------------------|
A|----------------------------------------------------------------------|
E|----------------------------------------------------------------------|

            G                    D                  G                  
E|-------------------12----------------------------------10-------------|
B|-12-13-15-15-15-15----15----------13-12-----8-10-10s12----13-12-13s15-|
G|-------------------------16r14-14---------7---------------------------|
D|----------------------------------------------------------------------|
A|----------------------------------------------------------------------|
E|----------------------------------------------------------------------|

            D
E|----------------------------------------------------------------------|
B|----------------------------------------------------------------------|
G|-16r14-12-14-14b16r14-------------------------------------------------|
D|----------------------------------------------------------------------|
A|----------------------------------------------------------------------|
E|----------------------------------------------------------------------|

      G
Nga sanga choekhor khorwei lamkha lu
      G
Dhe namya mathong wei bum chi thong
     C
Mo zhugshi ngo ree lu tawa chen
     D                   G
Ya Yeshey Khandum sa lu jen jyem zum
     D                   G
Ya Yeshey Khandum sa lu jen jyem zum

G
Mo gawei zum dha tendhi ge
G
Mo saley meto cha wei gang
C
Nge mingi sem gi tsedung dhi
D                      G
Nga rawang meba moolu shoso wei
D                      G
Nga rawang meba moolu shoso wei

--MUSIC--

     G
Bum choelu ga ser lapgho noowru rang
     G
Nga ngotsa chewei tapgi lap matsu
     C
Bum choelu gawei tsesum malap lae
D                            G
Nge sang nga choekhor khorsa haeso nu
D                            G
Nge sang nga choekhor khorsa haeso nu

G               
Nga san nga choekhor haebei tse
G
Kho naelu zhubei ka ngyer gi
C
Rang melam kagtab theu sew mae
D                  G     
Rang melam kagtab theu se na
D                      G
Nga gawai bum dhe dha dhoe chu chi

--MUSIC--

G
Mo lu gawei tse sum labei ga la
      G
Nge sang nga choekhor khor sa hea dhigi
    C
Ai nge zha dhuen tha cheya lang sonu
D                      G
Lok jhone dhoe tse ya renche nu
D                      G
Lok jhone dhoe tse ya renche nu

G
Bum dhelae logey len ma ngyem lae
G
Mo ngezha tsang dhi yasong wei
C
Nga thuena chen zhulu lueso wei
D              G
Dha lama kenchosum ra khen
D                        G
Bum dhee dha nga lokdhi choe chu chi
D                        G
Bum dhee dha nga lokdhi choe chu chi

--SOLO--

E|-----------------------------10---------------------------------------|
B|---8-10-12-12s13-12-10-10b12----12r10-10-8-10-------------------------|
G|-7--------------------------------------------------------------------|
D|----------------------------------------------------------------------|
A|----------------------------------------------------------------------|
E|----------------------------------------------------------------------|

E|----------------------------------------------------------------------|
B|----------------------------------------------------------------------|
G|-12b14-14-14p11---------------------12--------------------------------|
D|----------------12-12b14-14-------------------------------------------|
A|----------------------------12s(14)----14-13-12-10-------10-12-10-12--|
E|---------------------------------------------------10h12--------------|

E|-------------------------------------------7--------------------------|
B|-----8-----8-----8-----8-----8-----8-----8--10-8----------------------|
G|-7h9---7h9---7h9---7h9---7h9---7h9---7h9------------------------------|
D|----------------------------------------------------------------------|
A|----------------------------------------------------------------------|
E|----------------------------------------------------------------------|

E|----------------------------------------------------------------------|
B|-----8-----8-----8-----8-----8----------------------------------------|
G|-7h9---7h9---7h9---7h9---7h9----7s9-7---------------------------------|
D|----------------------------------------------------------------------|
A|--------------------------------------10s12-10------------------------|
E|-----------------------------------------------12-10------------------|

E|----------------------------------------------------------------------|
B|---8-8-8-10-10b12-12-10b12-12-10b12-12-10-8---------------------------|
G|-7--------------------------------------------------------------------|
D|----------------------------------------------------------------------|
A|----------------------------------------------------------------------|
E|----------------------------------------------------------------------|

E|----------------------------------------------------------------------|
B|-15b17r15-15-15-------------------------------------------------------|
G|----------------14b16-16r14-12-14-14----------------------------------|
D|----------------------------------------------------------------------|
A|----------------------------------------------------------------------|
E|----------------------------------------------------------------------|

E|-------------------------------12-12----------------------------------|
B|-12-13-15-12-13-15-12-13-15-12-------15-15-15s17----------------------|
G|----------------------------------------------------------------------|
D|----------------------------------------------------------------------|
A|----------------------------------------------------------------------|
E|----------------------------------------------------------------------|

E|-12---------------------------------------------------------------10--|
B|----13----13-15-13----------------------------8-----8---8---10b12-----|
G|-------14----------16p14-14-14-12-14-12---7h9---7h9---7---------------|
D|----------------------------------------------------------------------|
A|----------------------------------------------------------------------|
E|----------------------------------------------------------------------|

6 comments: